  0
SECTION
  2
BLOCKS
  0
ENDSEC
  0
SECTION
  2
ENTITIES
  0
LINE
  8
0
 10
106.747
 20
0.0597992
 11
107.41
 21
0.237427
  0
LINE
  8
0
 10
107.41
 20
0.237427
 11
108.032
 21
0.527451
  0
LINE
  8
0
 10
108.032
 20
0.527451
 11
108.594
 21
0.921082
  0
LINE
  8
0
 10
108.594
 20
0.921082
 11
109.079
 21
1.40633
  0
LINE
  8
0
 10
109.079
 20
1.40633
 11
109.473
 21
1.96848
  0
LINE
  8
0
 10
109.473
 20
1.96848
 11
109.763
 21
2.59044
  0
LINE
  8
0
 10
109.763
 20
2.59044
 11
109.94
 21
3.25333
  0
LINE
  8
0
 10
109.94
 20
3.25333
 11
110
 21
3.937
  0
LINE
  8
0
 10
110
 20
3.937
 11
110
 21
25.068
  0
LINE
  8
0
 10
110
 20
25.068
 11
109.94
 21
25.7517
  0
LINE
  8
0
 10
109.94
 20
25.7517
 11
109.763
 21
26.4146
  0
LINE
  8
0
 10
109.763
 20
26.4146
 11
109.473
 21
27.0365
  0
LINE
  8
0
 10
109.473
 20
27.0365
 11
109.079
 21
27.5987
  0
LINE
  8
0
 10
109.079
 20
27.5987
 11
108.594
 21
28.0839
  0
LINE
  8
0
 10
108.594
 20
28.0839
 11
108.032
 21
28.4776
  0
LINE
  8
0
 10
108.032
 20
28.4776
 11
107.41
 21
28.7676
  0
LINE
  8
0
 10
107.41
 20
28.7676
 11
106.747
 21
28.9452
  0
LINE
  8
0
 10
106.747
 20
28.9452
 11
106.063
 21
29.005
  0
LINE
  8
0
 10
106.063
 20
29.005
 11
95.8156
 21
29.005
  0
LINE
  8
0
 10
95.8156
 20
29.005
 11
95.4628
 21
29.0359
  0
LINE
  8
0
 10
95.4628
 20
29.0359
 11
95.1207
 21
29.1276
  0
LINE
  8
0
 10
95.1207
 20
29.1276
 11
94.7997
 21
29.2773
  0
LINE
  8
0
 10
94.7997
 20
29.2773
 11
94.5095
 21
29.4804
  0
LINE
  8
0
 10
94.5095
 20
29.4804
 11
94.259
 21
29.7309
  0
LINE
  8
0
 10
94.259
 20
29.7309
 11
94.0559
 21
30.021
  0
LINE
  8
0
 10
94.0559
 20
30.021
 11
93.9062
 21
30.342
  0
LINE
  8
0
 10
93.9062
 20
30.342
 11
93.8145
 21
30.6842
  0
LINE
  8
0
 10
93.8145
 20
30.6842
 11
93.7836
 21
31.037
  0
LINE
  8
0
 10
93.7836
 20
31.037
 11
93.7836
 21
32.307
  0
LINE
  8
0
 10
93.7836
 20
32.307
 11
93.7914
 21
32.3952
  0
LINE
  8
0
 10
93.7914
 20
32.3952
 11
93.8143
 21
32.4808
  0
LINE
  8
0
 10
93.8143
 20
32.4808
 11
93.8517
 21
32.561
  0
LINE
  8
0
 10
93.8517
 20
32.561
 11
93.9025
 21
32.6335
  0
LINE
  8
0
 10
93.9025
 20
32.6335
 11
93.9651
 21
32.6962
  0
LINE
  8
0
 10
93.9651
 20
32.6962
 11
94.0376
 21
32.7469
  0
LINE
  8
0
 10
94.0376
 20
32.7469
 11
94.1179
 21
32.7844
  0
LINE
  8
0
 10
94.1179
 20
32.7844
 11
94.2034
 21
32.8073
  0
LINE
  8
0
 10
94.2034
 20
32.8073
 11
94.2917
 21
32.815
  0
LINE
  8
0
 10
94.2917
 20
32.815
 11
96.1735
 21
32.815
  0
LINE
  8
0
 10
96.1735
 20
32.815
 11
96.1735
 21
33.3901
  0
LINE
  8
0
 10
96.1735
 20
33.3901
 11
96.1832
 21
33.4876
  0
LINE
  8
0
 10
96.1832
 20
33.4876
 11
96.2116
 21
33.5814
  0
LINE
  8
0
 10
96.2116
 20
33.5814
 11
96.2579
 21
33.6678
  0
LINE
  8
0
 10
96.2579
 20
33.6678
 11
96.3201
 21
33.7436
  0
LINE
  8
0
 10
96.3201
 20
33.7436
 11
96.3959
 21
33.8057
  0
LINE
  8
0
 10
96.3959
 20
33.8057
 11
96.4823
 21
33.8519
  0
LINE
  8
0
 10
96.4823
 20
33.8519
 11
96.5761
 21
33.8804
  0
LINE
  8
0
 10
96.5761
 20
33.8804
 11
96.6737
 21
33.8899
  0
LINE
  8
0
 10
96.6737
 20
33.8899
 11
100.174
 21
33.8899
  0
LINE
  8
0
 10
100.174
 20
33.8899
 11
100.174
 21
49.34
  0
LINE
  8
0
 10
100.174
 20
49.34
 11
97.2736
 21
49.34
  0
LINE
  8
0
 10
97.2736
 20
49.34
 11
97.1401
 21
49.355
  0
LINE
  8
0
 10
97.1401
 20
49.355
 11
97.0133
 21
49.3994
  0
LINE
  8
0
 10
97.0133
 20
49.3994
 11
96.8996
 21
49.4709
  0
LINE
  8
0
 10
96.8996
 20
49.4709
 11
96.8046
 21
49.5659
  0
LINE
  8
0
 10
96.8046
 20
49.5659
 11
96.7331
 21
49.6796
  0
LINE
  8
0
 10
96.7331
 20
49.6796
 11
96.6887
 21
49.8064
  0
LINE
  8
0
 10
96.6887
 20
49.8064
 11
96.6737
 21
49.9399
  0
LINE
  8
0
 10
96.6737
 20
49.9399
 11
96.6887
 21
50.0735
  0
LINE
  8
0
 10
96.6887
 20
50.0735
 11
96.7331
 21
50.2003
  0
LINE
  8
0
 10
96.7331
 20
50.2003
 11
96.8046
 21
50.314
  0
LINE
  8
0
 10
96.8046
 20
50.314
 11
96.8996
 21
50.409
  0
LINE
  8
0
 10
96.8996
 20
50.409
 11
97.0133
 21
50.4805
  0
LINE
  8
0
 10
97.0133
 20
50.4805
 11
97.1401
 21
50.5249
  0
LINE
  8
0
 10
97.1401
 20
50.5249
 11
97.2736
 21
50.5399
  0
LINE
  8
0
 10
97.2736
 20
50.5399
 11
100.174
 21
50.5399
  0
LINE
  8
0
 10
100.174
 20
50.5399
 11
100.174
 21
53.74
  0
LINE
  8
0
 10
100.174
 20
53.74
 11
96.6737
 21
53.74
  0
LINE
  8
0
 10
96.6737
 20
53.74
 11
96.5761
 21
53.7496
  0
LINE
  8
0
 10
96.5761
 20
53.7496
 11
96.4823
 21
53.7781
  0
LINE
  8
0
 10
96.4823
 20
53.7781
 11
96.3959
 21
53.8242
  0
LINE
  8
0
 10
96.3959
 20
53.8242
 11
96.3201
 21
53.8864
  0
LINE
  8
0
 10
96.3201
 20
53.8864
 11
96.2579
 21
53.9622
  0
LINE
  8
0
 10
96.2579
 20
53.9622
 11
96.2116
 21
54.0486
  0
LINE
  8
0
 10
96.2116
 20
54.0486
 11
96.1832
 21
54.1424
  0
LINE
  8
0
 10
96.1832
 20
54.1424
 11
96.1735
 21
54.2399
  0
LINE
  8
0
 10
96.1735
 20
54.2399
 11
96.1735
 21
54.815
  0
LINE
  8
0
 10
96.1735
 20
54.815
 11
2.032
 21
54.815
  0
LINE
  8
0
 10
2.032
 20
54.815
 11
1.67914
 21
54.7841
  0
LINE
  8
0
 10
1.67914
 20
54.7841
 11
1.33701
 21
54.6924
  0
LINE
  8
0
 10
1.33701
 20
54.6924
 11
1.01598
 21
54.5427
  0
LINE
  8
0
 10
1.01598
 20
54.5427
 11
0.72583
 21
54.3396
  0
LINE
  8
0
 10
0.72583
 20
54.3396
 11
0.475388
 21
54.0891
  0
LINE
  8
0
 10
0.475388
 20
54.0891
 11
0.272217
 21
53.799
  0
LINE
  8
0
 10
0.272217
 20
53.799
 11
0.122528
 21
53.478
  0
LINE
  8
0
 10
0.122528
 20
53.478
 11
0.0308533
 21
53.1358
  0
LINE
  8
0
 10
0.0308533
 20
53.1358
 11
0
 21
52.783
  0
LINE
  8
0
 10
0
 20
52.783
 11
0
 21
2.032
  0
LINE
  8
0
 10
0
 20
2.032
 11
0.0308533
 21
1.67914
  0
LINE
  8
0
 10
0.0308533
 20
1.67914
 11
0.122528
 21
1.33701
  0
LINE
  8
0
 10
0.122528
 20
1.33701
 11
0.272217
 21
1.01598
  0
LINE
  8
0
 10
0.272217
 20
1.01598
 11
0.475388
 21
0.72583
  0
LINE
  8
0
 10
0.475388
 20
0.72583
 11
0.72583
 21
0.475388
  0
LINE
  8
0
 10
0.72583
 20
0.475388
 11
1.01598
 21
0.272217
  0
LINE
  8
0
 10
1.01598
 20
0.272217
 11
1.33701
 21
0.122528
  0
LINE
  8
0
 10
1.33701
 20
0.122528
 11
1.67914
 21
0.0308533
  0
LINE
  8
0
 10
1.67914
 20
0.0308533
 11
2.032
 21
0
  0
LINE
  8
0
 10
2.032
 20
0
 11
106.063
 21
0
  0
LINE
  8
0
 10
106.063
 20
0
 11
106.747
 21
0.0597992
  0
LINE
  8
0
 10
3.69765
 20
49.6009
 11
3.5932
 21
49.6082
  0
LINE
  8
0
 10
3.5932
 20
49.6082
 11
3.48952
 21
49.6228
  0
LINE
  8
0
 10
3.48952
 20
49.6228
 11
3.38712
 21
49.6446
  0
LINE
  8
0
 10
3.38712
 20
49.6446
 11
3.28647
 21
49.6734
  0
LINE
  8
0
 10
3.28647
 20
49.6734
 11
3.18808
 21
49.7092
  0
LINE
  8
0
 10
3.18808
 20
49.7092
 11
3.09244
 21
49.7518
  0
LINE
  8
0
 10
3.09244
 20
49.7518
 11
3
 21
49.801
  0
LINE
  8
0
 10
3
 20
49.801
 11
2.91121
 21
49.8564
  0
LINE
  8
0
 10
2.91121
 20
49.8564
 11
2.82651
 21
49.918
  0
LINE
  8
0
 10
2.82651
 20
49.918
 11
2.74629
 21
49.9853
  0
LINE
  8
0
 10
2.74629
 20
49.9853
 11
2.67099
 21
50.058
  0
LINE
  8
0
 10
2.67099
 20
50.058
 11
2.60092
 21
50.1358
  0
LINE
  8
0
 10
2.60092
 20
50.1358
 11
2.53647
 21
50.2183
  0
LINE
  8
0
 10
2.53647
 20
50.2183
 11
2.47792
 21
50.3051
  0
LINE
  8
0
 10
2.47792
 20
50.3051
 11
2.42557
 21
50.3958
  0
LINE
  8
0
 10
2.42557
 20
50.3958
 11
2.37967
 21
50.4899
  0
LINE
  8
0
 10
2.37967
 20
50.4899
 11
2.34045
 21
50.587
  0
LINE
  8
0
 10
2.34045
 20
50.587
 11
2.30811
 21
50.6865
  0
LINE
  8
0
 10
2.30811
 20
50.6865
 11
2.28278
 21
50.7881
  0
LINE
  8
0
 10
2.28278
 20
50.7881
 11
2.26459
 21
50.8912
  0
LINE
  8
0
 10
2.26459
 20
50.8912
 11
2.25365
 21
50.9954
  0
LINE
  8
0
 10
2.25365
 20
50.9954
 11
2.25
 21
51.1
  0
LINE
  8
0
 10
2.25
 20
51.1
 11
2.25365
 21
51.2046
  0
LINE
  8
0
 10
2.25365
 20
51.2046
 11
2.26459
 21
51.3088
  0
LINE
  8
0
 10
2.26459
 20
51.3088
 11
2.28278
 21
51.4119
  0
LINE
  8
0
 10
2.28278
 20
51.4119
 11
2.30811
 21
51.5135
  0
LINE
  8
0
 10
2.30811
 20
51.5135
 11
2.34045
 21
51.613
  0
LINE
  8
0
 10
2.34045
 20
51.613
 11
2.37967
 21
51.7101
  0
LINE
  8
0
 10
2.37967
 20
51.7101
 11
2.42557
 21
51.8042
  0
LINE
  8
0
 10
2.42557
 20
51.8042
 11
2.47792
 21
51.8949
  0
LINE
  8
0
 10
2.47792
 20
51.8949
 11
2.53647
 21
51.9817
  0
LINE
  8
0
 10
2.53647
 20
51.9817
 11
2.60092
 21
52.0642
  0
LINE
  8
0
 10
2.60092
 20
52.0642
 11
2.67099
 21
52.142
  0
LINE
  8
0
 10
2.67099
 20
52.142
 11
2.74629
 21
52.2147
  0
LINE
  8
0
 10
2.74629
 20
52.2147
 11
2.82651
 21
52.282
  0
LINE
  8
0
 10
2.82651
 20
52.282
 11
2.91121
 21
52.3436
  0
LINE
  8
0
 10
2.91121
 20
52.3436
 11
3
 21
52.399
  0
LINE
  8
0
 10
3
 20
52.399
 11
3.09244
 21
52.4482
  0
LINE
  8
0
 10
3.09244
 20
52.4482
 11
3.18808
 21
52.4908
  0
LINE
  8
0
 10
3.18808
 20
52.4908
 11
3.28647
 21
52.5266
  0
LINE
  8
0
 10
3.28647
 20
52.5266
 11
3.38712
 21
52.5554
  0
LINE
  8
0
 10
3.38712
 20
52.5554
 11
3.48952
 21
52.5772
  0
LINE
  8
0
 10
3.48952
 20
52.5772
 11
3.5932
 21
52.5918
  0
LINE
  8
0
 10
3.5932
 20
52.5918
 11
3.69765
 21
52.5991
  0
LINE
  8
0
 10
3.69765
 20
52.5991
 11
3.80234
 21
52.5991
  0
LINE
  8
0
 10
3.80234
 20
52.5991
 11
3.90678
 21
52.5918
  0
LINE
  8
0
 10
3.90678
 20
52.5918
 11
4.01047
 21
52.5772
  0
LINE
  8
0
 10
4.01047
 20
52.5772
 11
4.11287
 21
52.5554
  0
LINE
  8
0
 10
4.11287
 20
52.5554
 11
4.21352
 21
52.5266
  0
LINE
  8
0
 10
4.21352
 20
52.5266
 11
4.3119
 21
52.4908
  0
LINE
  8
0
 10
4.3119
 20
52.4908
 11
4.40755
 21
52.4482
  0
LINE
  8
0
 10
4.40755
 20
52.4482
 11
4.5
 21
52.399
  0
LINE
  8
0
 10
4.5
 20
52.399
 11
4.58878
 21
52.3436
  0
LINE
  8
0
 10
4.58878
 20
52.3436
 11
4.67348
 21
52.282
  0
LINE
  8
0
 10
4.67348
 20
52.282
 11
4.75369
 21
52.2147
  0
LINE
  8
0
 10
4.75369
 20
52.2147
 11
4.82901
 21
52.142
  0
LINE
  8
0
 10
4.82901
 20
52.142
 11
4.89906
 21
52.0642
  0
LINE
  8
0
 10
4.89906
 20
52.0642
 11
4.96352
 21
51.9817
  0
LINE
  8
0
 10
4.96352
 20
51.9817
 11
5.02206
 21
51.8949
  0
LINE
  8
0
 10
5.02206
 20
51.8949
 11
5.07442
 21
51.8042
  0
LINE
  8
0
 10
5.07442
 20
51.8042
 11
5.12032
 21
51.7101
  0
LINE
  8
0
 10
5.12032
 20
51.7101
 11
5.15953
 21
51.613
  0
LINE
  8
0
 10
5.15953
 20
51.613
 11
5.19188
 21
51.5135
  0
LINE
  8
0
 10
5.19188
 20
51.5135
 11
5.21721
 21
51.4119
  0
LINE
  8
0
 10
5.21721
 20
51.4119
 11
5.2354
 21
51.3088
  0
LINE
  8
0
 10
5.2354
 20
51.3088
 11
5.24634
 21
51.2046
  0
LINE
  8
0
 10
5.24634
 20
51.2046
 11
5.25
 21
51.1
  0
LINE
  8
0
 10
5.25
 20
51.1
 11
5.24634
 21
50.9954
  0
LINE
  8
0
 10
5.24634
 20
50.9954
 11
5.2354
 21
50.8912
  0
LINE
  8
0
 10
5.2354
 20
50.8912
 11
5.21721
 21
50.7881
  0
LINE
  8
0
 10
5.21721
 20
50.7881
 11
5.19188
 21
50.6865
  0
LINE
  8
0
 10
5.19188
 20
50.6865
 11
5.15953
 21
50.587
  0
LINE
  8
0
 10
5.15953
 20
50.587
 11
5.12032
 21
50.4899
  0
LINE
  8
0
 10
5.12032
 20
50.4899
 11
5.07442
 21
50.3958
  0
LINE
  8
0
 10
5.07442
 20
50.3958
 11
5.02206
 21
50.3051
  0
LINE
  8
0
 10
5.02206
 20
50.3051
 11
4.96352
 21
50.2183
  0
LINE
  8
0
 10
4.96352
 20
50.2183
 11
4.89906
 21
50.1358
  0
LINE
  8
0
 10
4.89906
 20
50.1358
 11
4.82901
 21
50.058
  0
LINE
  8
0
 10
4.82901
 20
50.058
 11
4.75369
 21
49.9853
  0
LINE
  8
0
 10
4.75369
 20
49.9853
 11
4.67348
 21
49.918
  0
LINE
  8
0
 10
4.67348
 20
49.918
 11
4.58878
 21
49.8564
  0
LINE
  8
0
 10
4.58878
 20
49.8564
 11
4.5
 21
49.801
  0
LINE
  8
0
 10
4.5
 20
49.801
 11
4.40755
 21
49.7518
  0
LINE
  8
0
 10
4.40755
 20
49.7518
 11
4.3119
 21
49.7092
  0
LINE
  8
0
 10
4.3119
 20
49.7092
 11
4.21352
 21
49.6734
  0
LINE
  8
0
 10
4.21352
 20
49.6734
 11
4.11287
 21
49.6446
  0
LINE
  8
0
 10
4.11287
 20
49.6446
 11
4.01047
 21
49.6228
  0
LINE
  8
0
 10
4.01047
 20
49.6228
 11
3.90678
 21
49.6082
  0
LINE
  8
0
 10
3.90678
 20
49.6082
 11
3.80234
 21
49.6009
  0
LINE
  8
0
 10
3.80234
 20
49.6009
 11
3.69765
 21
49.6009
  0
LINE
  8
0
 10
20.0977
 20
42.3509
 11
19.9932
 21
42.3582
  0
LINE
  8
0
 10
19.9932
 20
42.3582
 11
19.8895
 21
42.3728
  0
LINE
  8
0
 10
19.8895
 20
42.3728
 11
19.7871
 21
42.3946
  0
LINE
  8
0
 10
19.7871
 20
42.3946
 11
19.6865
 21
42.4234
  0
LINE
  8
0
 10
19.6865
 20
42.4234
 11
19.5881
 21
42.4592
  0
LINE
  8
0
 10
19.5881
 20
42.4592
 11
19.4924
 21
42.5018
  0
LINE
  8
0
 10
19.4924
 20
42.5018
 11
19.4
 21
42.551
  0
LINE
  8
0
 10
19.4
 20
42.551
 11
19.3112
 21
42.6064
  0
LINE
  8
0
 10
19.3112
 20
42.6064
 11
19.2265
 21
42.668
  0
LINE
  8
0
 10
19.2265
 20
42.668
 11
19.1463
 21
42.7353
  0
LINE
  8
0
 10
19.1463
 20
42.7353
 11
19.071
 21
42.808
  0
LINE
  8
0
 10
19.071
 20
42.808
 11
19.0009
 21
42.8858
  0
LINE
  8
0
 10
19.0009
 20
42.8858
 11
18.9365
 21
42.9683
  0
LINE
  8
0
 10
18.9365
 20
42.9683
 11
18.8779
 21
43.0551
  0
LINE
  8
0
 10
18.8779
 20
43.0551
 11
18.8256
 21
43.1458
  0
LINE
  8
0
 10
18.8256
 20
43.1458
 11
18.7797
 21
43.2399
  0
LINE
  8
0
 10
18.7797
 20
43.2399
 11
18.7405
 21
43.337
  0
LINE
  8
0
 10
18.7405
 20
43.337
 11
18.7081
 21
43.4365
  0
LINE
  8
0
 10
18.7081
 20
43.4365
 11
18.6828
 21
43.5381
  0
LINE
  8
0
 10
18.6828
 20
43.5381
 11
18.6646
 21
43.6412
  0
LINE
  8
0
 10
18.6646
 20
43.6412
 11
18.6537
 21
43.7454
  0
LINE
  8
0
 10
18.6537
 20
43.7454
 11
18.65
 21
43.85
  0
LINE
  8
0
 10
18.65
 20
43.85
 11
18.6537
 21
43.9546
  0
LINE
  8
0
 10
18.6537
 20
43.9546
 11
18.6646
 21
44.0588
  0
LINE
  8
0
 10
18.6646
 20
44.0588
 11
18.6828
 21
44.1619
  0
LINE
  8
0
 10
18.6828
 20
44.1619
 11
18.7081
 21
44.2635
  0
LINE
  8
0
 10
18.7081
 20
44.2635
 11
18.7405
 21
44.363
  0
LINE
  8
0
 10
18.7405
 20
44.363
 11
18.7797
 21
44.4601
  0
LINE
  8
0
 10
18.7797
 20
44.4601
 11
18.8256
 21
44.5542
  0
LINE
  8
0
 10
18.8256
 20
44.5542
 11
18.8779
 21
44.6449
  0
LINE
  8
0
 10
18.8779
 20
44.6449
 11
18.9365
 21
44.7317
  0
LINE
  8
0
 10
18.9365
 20
44.7317
 11
19.0009
 21
44.8142
  0
LINE
  8
0
 10
19.0009
 20
44.8142
 11
19.071
 21
44.892
  0
LINE
  8
0
 10
19.071
 20
44.892
 11
19.1463
 21
44.9647
  0
LINE
  8
0
 10
19.1463
 20
44.9647
 11
19.2265
 21
45.032
  0
LINE
  8
0
 10
19.2265
 20
45.032
 11
19.3112
 21
45.0936
  0
LINE
  8
0
 10
19.3112
 20
45.0936
 11
19.4
 21
45.149
  0
LINE
  8
0
 10
19.4
 20
45.149
 11
19.4924
 21
45.1982
  0
LINE
  8
0
 10
19.4924
 20
45.1982
 11
19.5881
 21
45.2408
  0
LINE
  8
0
 10
19.5881
 20
45.2408
 11
19.6865
 21
45.2766
  0
LINE
  8
0
 10
19.6865
 20
45.2766
 11
19.7871
 21
45.3054
  0
LINE
  8
0
 10
19.7871
 20
45.3054
 11
19.8895
 21
45.3272
  0
LINE
  8
0
 10
19.8895
 20
45.3272
 11
19.9932
 21
45.3418
  0
LINE
  8
0
 10
19.9932
 20
45.3418
 11
20.0977
 21
45.3491
  0
LINE
  8
0
 10
20.0977
 20
45.3491
 11
20.2023
 21
45.3491
  0
LINE
  8
0
 10
20.2023
 20
45.3491
 11
20.3068
 21
45.3418
  0
LINE
  8
0
 10
20.3068
 20
45.3418
 11
20.4105
 21
45.3272
  0
LINE
  8
0
 10
20.4105
 20
45.3272
 11
20.5129
 21
45.3054
  0
LINE
  8
0
 10
20.5129
 20
45.3054
 11
20.6135
 21
45.2766
  0
LINE
  8
0
 10
20.6135
 20
45.2766
 11
20.7119
 21
45.2408
  0
LINE
  8
0
 10
20.7119
 20
45.2408
 11
20.8076
 21
45.1982
  0
LINE
  8
0
 10
20.8076
 20
45.1982
 11
20.9
 21
45.149
  0
LINE
  8
0
 10
20.9
 20
45.149
 11
20.9888
 21
45.0936
  0
LINE
  8
0
 10
20.9888
 20
45.0936
 11
21.0735
 21
45.032
  0
LINE
  8
0
 10
21.0735
 20
45.032
 11
21.1537
 21
44.9647
  0
LINE
  8
0
 10
21.1537
 20
44.9647
 11
21.229
 21
44.892
  0
LINE
  8
0
 10
21.229
 20
44.892
 11
21.2991
 21
44.8142
  0
LINE
  8
0
 10
21.2991
 20
44.8142
 11
21.3635
 21
44.7317
  0
LINE
  8
0
 10
21.3635
 20
44.7317
 11
21.4221
 21
44.6449
  0
LINE
  8
0
 10
21.4221
 20
44.6449
 11
21.4744
 21
44.5542
  0
LINE
  8
0
 10
21.4744
 20
44.5542
 11
21.5203
 21
44.4601
  0
LINE
  8
0
 10
21.5203
 20
44.4601
 11
21.5595
 21
44.363
  0
LINE
  8
0
 10
21.5595
 20
44.363
 11
21.5919
 21
44.2635
  0
LINE
  8
0
 10
21.5919
 20
44.2635
 11
21.6172
 21
44.1619
  0
LINE
  8
0
 10
21.6172
 20
44.1619
 11
21.6354
 21
44.0588
  0
LINE
  8
0
 10
21.6354
 20
44.0588
 11
21.6463
 21
43.9546
  0
LINE
  8
0
 10
21.6463
 20
43.9546
 11
21.65
 21
43.85
  0
LINE
  8
0
 10
21.65
 20
43.85
 11
21.6463
 21
43.7454
  0
LINE
  8
0
 10
21.6463
 20
43.7454
 11
21.6354
 21
43.6412
  0
LINE
  8
0
 10
21.6354
 20
43.6412
 11
21.6172
 21
43.5381
  0
LINE
  8
0
 10
21.6172
 20
43.5381
 11
21.5919
 21
43.4365
  0
LINE
  8
0
 10
21.5919
 20
43.4365
 11
21.5595
 21
43.337
  0
LINE
  8
0
 10
21.5595
 20
43.337
 11
21.5203
 21
43.2399
  0
LINE
  8
0
 10
21.5203
 20
43.2399
 11
21.4744
 21
43.1458
  0
LINE
  8
0
 10
21.4744
 20
43.1458
 11
21.4221
 21
43.0551
  0
LINE
  8
0
 10
21.4221
 20
43.0551
 11
21.3635
 21
42.9683
  0
LINE
  8
0
 10
21.3635
 20
42.9683
 11
21.2991
 21
42.8858
  0
LINE
  8
0
 10
21.2991
 20
42.8858
 11
21.229
 21
42.808
  0
LINE
  8
0
 10
21.229
 20
42.808
 11
21.1537
 21
42.7353
  0
LINE
  8
0
 10
21.1537
 20
42.7353
 11
21.0735
 21
42.668
  0
LINE
  8
0
 10
21.0735
 20
42.668
 11
20.9888
 21
42.6064
  0
LINE
  8
0
 10
20.9888
 20
42.6064
 11
20.9
 21
42.551
  0
LINE
  8
0
 10
20.9
 20
42.551
 11
20.8076
 21
42.5018
  0
LINE
  8
0
 10
20.8076
 20
42.5018
 11
20.7119
 21
42.4592
  0
LINE
  8
0
 10
20.7119
 20
42.4592
 11
20.6135
 21
42.4234
  0
LINE
  8
0
 10
20.6135
 20
42.4234
 11
20.5129
 21
42.3946
  0
LINE
  8
0
 10
20.5129
 20
42.3946
 11
20.4105
 21
42.3728
  0
LINE
  8
0
 10
20.4105
 20
42.3728
 11
20.3068
 21
42.3582
  0
LINE
  8
0
 10
20.3068
 20
42.3582
 11
20.2023
 21
42.3509
  0
LINE
  8
0
 10
20.2023
 20
42.3509
 11
20.0977
 21
42.3509
  0
LINE
  8
0
 10
105.948
 20
23.3509
 11
105.843
 21
23.3582
  0
LINE
  8
0
 10
105.843
 20
23.3582
 11
105.74
 21
23.3728
  0
LINE
  8
0
 10
105.74
 20
23.3728
 11
105.637
 21
23.3946
  0
LINE
  8
0
 10
105.637
 20
23.3946
 11
105.536
 21
23.4234
  0
LINE
  8
0
 10
105.536
 20
23.4234
 11
105.438
 21
23.4592
  0
LINE
  8
0
 10
105.438
 20
23.4592
 11
105.342
 21
23.5018
  0
LINE
  8
0
 10
105.342
 20
23.5018
 11
105.25
 21
23.551
  0
LINE
  8
0
 10
105.25
 20
23.551
 11
105.161
 21
23.6064
  0
LINE
  8
0
 10
105.161
 20
23.6064
 11
105.077
 21
23.668
  0
LINE
  8
0
 10
105.077
 20
23.668
 11
104.996
 21
23.7353
  0
LINE
  8
0
 10
104.996
 20
23.7353
 11
104.921
 21
23.808
  0
LINE
  8
0
 10
104.921
 20
23.808
 11
104.851
 21
23.8858
  0
LINE
  8
0
 10
104.851
 20
23.8858
 11
104.786
 21
23.9683
  0
LINE
  8
0
 10
104.786
 20
23.9683
 11
104.728
 21
24.0551
  0
LINE
  8
0
 10
104.728
 20
24.0551
 11
104.676
 21
24.1458
  0
LINE
  8
0
 10
104.676
 20
24.1458
 11
104.63
 21
24.2399
  0
LINE
  8
0
 10
104.63
 20
24.2399
 11
104.59
 21
24.337
  0
LINE
  8
0
 10
104.59
 20
24.337
 11
104.558
 21
24.4365
  0
LINE
  8
0
 10
104.558
 20
24.4365
 11
104.533
 21
24.5381
  0
LINE
  8
0
 10
104.533
 20
24.5381
 11
104.515
 21
24.6412
  0
LINE
  8
0
 10
104.515
 20
24.6412
 11
104.504
 21
24.7454
  0
LINE
  8
0
 10
104.504
 20
24.7454
 11
104.5
 21
24.85
  0
LINE
  8
0
 10
104.5
 20
24.85
 11
104.504
 21
24.9546
  0
LINE
  8
0
 10
104.504
 20
24.9546
 11
104.515
 21
25.0588
  0
LINE
  8
0
 10
104.515
 20
25.0588
 11
104.533
 21
25.1619
  0
LINE
  8
0
 10
104.533
 20
25.1619
 11
104.558
 21
25.2635
  0
LINE
  8
0
 10
104.558
 20
25.2635
 11
104.59
 21
25.363
  0
LINE
  8
0
 10
104.59
 20
25.363
 11
104.63
 21
25.4601
  0
LINE
  8
0
 10
104.63
 20
25.4601
 11
104.676
 21
25.5542
  0
LINE
  8
0
 10
104.676
 20
25.5542
 11
104.728
 21
25.6449
  0
LINE
  8
0
 10
104.728
 20
25.6449
 11
104.786
 21
25.7317
  0
LINE
  8
0
 10
104.786
 20
25.7317
 11
104.851
 21
25.8142
  0
LINE
  8
0
 10
104.851
 20
25.8142
 11
104.921
 21
25.892
  0
LINE
  8
0
 10
104.921
 20
25.892
 11
104.996
 21
25.9647
  0
LINE
  8
0
 10
104.996
 20
25.9647
 11
105.077
 21
26.032
  0
LINE
  8
0
 10
105.077
 20
26.032
 11
105.161
 21
26.0936
  0
LINE
  8
0
 10
105.161
 20
26.0936
 11
105.25
 21
26.149
  0
LINE
  8
0
 10
105.25
 20
26.149
 11
105.342
 21
26.1982
  0
LINE
  8
0
 10
105.342
 20
26.1982
 11
105.438
 21
26.2408
  0
LINE
  8
0
 10
105.438
 20
26.2408
 11
105.536
 21
26.2766
  0
LINE
  8
0
 10
105.536
 20
26.2766
 11
105.637
 21
26.3054
  0
LINE
  8
0
 10
105.637
 20
26.3054
 11
105.74
 21
26.3272
  0
LINE
  8
0
 10
105.74
 20
26.3272
 11
105.843
 21
26.3418
  0
LINE
  8
0
 10
105.843
 20
26.3418
 11
105.948
 21
26.3491
  0
LINE
  8
0
 10
105.948
 20
26.3491
 11
106.052
 21
26.3491
  0
LINE
  8
0
 10
106.052
 20
26.3491
 11
106.157
 21
26.3418
  0
LINE
  8
0
 10
106.157
 20
26.3418
 11
106.26
 21
26.3272
  0
LINE
  8
0
 10
106.26
 20
26.3272
 11
106.363
 21
26.3054
  0
LINE
  8
0
 10
106.363
 20
26.3054
 11
106.464
 21
26.2766
  0
LINE
  8
0
 10
106.464
 20
26.2766
 11
106.562
 21
26.2408
  0
LINE
  8
0
 10
106.562
 20
26.2408
 11
106.658
 21
26.1982
  0
LINE
  8
0
 10
106.658
 20
26.1982
 11
106.75
 21
26.149
  0
LINE
  8
0
 10
106.75
 20
26.149
 11
106.839
 21
26.0936
  0
LINE
  8
0
 10
106.839
 20
26.0936
 11
106.923
 21
26.032
  0
LINE
  8
0
 10
106.923
 20
26.032
 11
107.004
 21
25.9647
  0
LINE
  8
0
 10
107.004
 20
25.9647
 11
107.079
 21
25.892
  0
LINE
  8
0
 10
107.079
 20
25.892
 11
107.149
 21
25.8142
  0
LINE
  8
0
 10
107.149
 20
25.8142
 11
107.214
 21
25.7317
  0
LINE
  8
0
 10
107.214
 20
25.7317
 11
107.272
 21
25.6449
  0
LINE
  8
0
 10
107.272
 20
25.6449
 11
107.324
 21
25.5542
  0
LINE
  8
0
 10
107.324
 20
25.5542
 11
107.37
 21
25.4601
  0
LINE
  8
0
 10
107.37
 20
25.4601
 11
107.41
 21
25.363
  0
LINE
  8
0
 10
107.41
 20
25.363
 11
107.442
 21
25.2635
  0
LINE
  8
0
 10
107.442
 20
25.2635
 11
107.467
 21
25.1619
  0
LINE
  8
0
 10
107.467
 20
25.1619
 11
107.485
 21
25.0588
  0
LINE
  8
0
 10
107.485
 20
25.0588
 11
107.496
 21
24.9546
  0
LINE
  8
0
 10
107.496
 20
24.9546
 11
107.5
 21
24.85
  0
LINE
  8
0
 10
107.5
 20
24.85
 11
107.496
 21
24.7454
  0
LINE
  8
0
 10
107.496
 20
24.7454
 11
107.485
 21
24.6412
  0
LINE
  8
0
 10
107.485
 20
24.6412
 11
107.467
 21
24.5381
  0
LINE
  8
0
 10
107.467
 20
24.5381
 11
107.442
 21
24.4365
  0
LINE
  8
0
 10
107.442
 20
24.4365
 11
107.41
 21
24.337
  0
LINE
  8
0
 10
107.41
 20
24.337
 11
107.37
 21
24.2399
  0
LINE
  8
0
 10
107.37
 20
24.2399
 11
107.324
 21
24.1458
  0
LINE
  8
0
 10
107.324
 20
24.1458
 11
107.272
 21
24.0551
  0
LINE
  8
0
 10
107.272
 20
24.0551
 11
107.214
 21
23.9683
  0
LINE
  8
0
 10
107.214
 20
23.9683
 11
107.149
 21
23.8858
  0
LINE
  8
0
 10
107.149
 20
23.8858
 11
107.079
 21
23.808
  0
LINE
  8
0
 10
107.079
 20
23.808
 11
107.004
 21
23.7353
  0
LINE
  8
0
 10
107.004
 20
23.7353
 11
106.923
 21
23.668
  0
LINE
  8
0
 10
106.923
 20
23.668
 11
106.839
 21
23.6064
  0
LINE
  8
0
 10
106.839
 20
23.6064
 11
106.75
 21
23.551
  0
LINE
  8
0
 10
106.75
 20
23.551
 11
106.658
 21
23.5018
  0
LINE
  8
0
 10
106.658
 20
23.5018
 11
106.562
 21
23.4592
  0
LINE
  8
0
 10
106.562
 20
23.4592
 11
106.464
 21
23.4234
  0
LINE
  8
0
 10
106.464
 20
23.4234
 11
106.363
 21
23.3946
  0
LINE
  8
0
 10
106.363
 20
23.3946
 11
106.26
 21
23.3728
  0
LINE
  8
0
 10
106.26
 20
23.3728
 11
106.157
 21
23.3582
  0
LINE
  8
0
 10
106.157
 20
23.3582
 11
106.052
 21
23.3509
  0
LINE
  8
0
 10
106.052
 20
23.3509
 11
105.948
 21
23.3509
  0
LINE
  8
0
 10
3.69765
 20
16.3509
 11
3.5932
 21
16.3582
  0
LINE
  8
0
 10
3.5932
 20
16.3582
 11
3.48952
 21
16.3728
  0
LINE
  8
0
 10
3.48952
 20
16.3728
 11
3.38712
 21
16.3946
  0
LINE
  8
0
 10
3.38712
 20
16.3946
 11
3.28647
 21
16.4234
  0
LINE
  8
0
 10
3.28647
 20
16.4234
 11
3.18808
 21
16.4592
  0
LINE
  8
0
 10
3.18808
 20
16.4592
 11
3.09244
 21
16.5018
  0
LINE
  8
0
 10
3.09244
 20
16.5018
 11
3
 21
16.551
  0
LINE
  8
0
 10
3
 20
16.551
 11
2.91121
 21
16.6064
  0
LINE
  8
0
 10
2.91121
 20
16.6064
 11
2.82651
 21
16.668
  0
LINE
  8
0
 10
2.82651
 20
16.668
 11
2.74629
 21
16.7353
  0
LINE
  8
0
 10
2.74629
 20
16.7353
 11
2.67099
 21
16.808
  0
LINE
  8
0
 10
2.67099
 20
16.808
 11
2.60092
 21
16.8858
  0
LINE
  8
0
 10
2.60092
 20
16.8858
 11
2.53647
 21
16.9683
  0
LINE
  8
0
 10
2.53647
 20
16.9683
 11
2.47792
 21
17.0551
  0
LINE
  8
0
 10
2.47792
 20
17.0551
 11
2.42557
 21
17.1458
  0
LINE
  8
0
 10
2.42557
 20
17.1458
 11
2.37967
 21
17.2399
  0
LINE
  8
0
 10
2.37967
 20
17.2399
 11
2.34045
 21
17.337
  0
LINE
  8
0
 10
2.34045
 20
17.337
 11
2.30811
 21
17.4365
  0
LINE
  8
0
 10
2.30811
 20
17.4365
 11
2.28278
 21
17.5381
  0
LINE
  8
0
 10
2.28278
 20
17.5381
 11
2.26459
 21
17.6412
  0
LINE
  8
0
 10
2.26459
 20
17.6412
 11
2.25365
 21
17.7454
  0
LINE
  8
0
 10
2.25365
 20
17.7454
 11
2.25
 21
17.85
  0
LINE
  8
0
 10
2.25
 20
17.85
 11
2.25365
 21
17.9546
  0
LINE
  8
0
 10
2.25365
 20
17.9546
 11
2.26459
 21
18.0588
  0
LINE
  8
0
 10
2.26459
 20
18.0588
 11
2.28278
 21
18.1619
  0
LINE
  8
0
 10
2.28278
 20
18.1619
 11
2.30811
 21
18.2635
  0
LINE
  8
0
 10
2.30811
 20
18.2635
 11
2.34045
 21
18.363
  0
LINE
  8
0
 10
2.34045
 20
18.363
 11
2.37967
 21
18.4601
  0
LINE
  8
0
 10
2.37967
 20
18.4601
 11
2.42557
 21
18.5542
  0
LINE
  8
0
 10
2.42557
 20
18.5542
 11
2.47792
 21
18.6449
  0
LINE
  8
0
 10
2.47792
 20
18.6449
 11
2.53647
 21
18.7317
  0
LINE
  8
0
 10
2.53647
 20
18.7317
 11
2.60092
 21
18.8142
  0
LINE
  8
0
 10
2.60092
 20
18.8142
 11
2.67099
 21
18.892
  0
LINE
  8
0
 10
2.67099
 20
18.892
 11
2.74629
 21
18.9647
  0
LINE
  8
0
 10
2.74629
 20
18.9647
 11
2.82651
 21
19.032
  0
LINE
  8
0
 10
2.82651
 20
19.032
 11
2.91121
 21
19.0936
  0
LINE
  8
0
 10
2.91121
 20
19.0936
 11
3
 21
19.149
  0
LINE
  8
0
 10
3
 20
19.149
 11
3.09244
 21
19.1982
  0
LINE
  8
0
 10
3.09244
 20
19.1982
 11
3.18808
 21
19.2408
  0
LINE
  8
0
 10
3.18808
 20
19.2408
 11
3.28647
 21
19.2766
  0
LINE
  8
0
 10
3.28647
 20
19.2766
 11
3.38712
 21
19.3054
  0
LINE
  8
0
 10
3.38712
 20
19.3054
 11
3.48952
 21
19.3272
  0
LINE
  8
0
 10
3.48952
 20
19.3272
 11
3.5932
 21
19.3418
  0
LINE
  8
0
 10
3.5932
 20
19.3418
 11
3.69765
 21
19.3491
  0
LINE
  8
0
 10
3.69765
 20
19.3491
 11
3.80234
 21
19.3491
  0
LINE
  8
0
 10
3.80234
 20
19.3491
 11
3.90678
 21
19.3418
  0
LINE
  8
0
 10
3.90678
 20
19.3418
 11
4.01047
 21
19.3272
  0
LINE
  8
0
 10
4.01047
 20
19.3272
 11
4.11287
 21
19.3054
  0
LINE
  8
0
 10
4.11287
 20
19.3054
 11
4.21352
 21
19.2766
  0
LINE
  8
0
 10
4.21352
 20
19.2766
 11
4.3119
 21
19.2408
  0
LINE
  8
0
 10
4.3119
 20
19.2408
 11
4.40755
 21
19.1982
  0
LINE
  8
0
 10
4.40755
 20
19.1982
 11
4.5
 21
19.149
  0
LINE
  8
0
 10
4.5
 20
19.149
 11
4.58878
 21
19.0936
  0
LINE
  8
0
 10
4.58878
 20
19.0936
 11
4.67348
 21
19.032
  0
LINE
  8
0
 10
4.67348
 20
19.032
 11
4.75369
 21
18.9647
  0
LINE
  8
0
 10
4.75369
 20
18.9647
 11
4.82901
 21
18.892
  0
LINE
  8
0
 10
4.82901
 20
18.892
 11
4.89906
 21
18.8142
  0
LINE
  8
0
 10
4.89906
 20
18.8142
 11
4.96352
 21
18.7317
  0
LINE
  8
0
 10
4.96352
 20
18.7317
 11
5.02206
 21
18.6449
  0
LINE
  8
0
 10
5.02206
 20
18.6449
 11
5.07442
 21
18.5542
  0
LINE
  8
0
 10
5.07442
 20
18.5542
 11
5.12032
 21
18.4601
  0
LINE
  8
0
 10
5.12032
 20
18.4601
 11
5.15953
 21
18.363
  0
LINE
  8
0
 10
5.15953
 20
18.363
 11
5.19188
 21
18.2635
  0
LINE
  8
0
 10
5.19188
 20
18.2635
 11
5.21721
 21
18.1619
  0
LINE
  8
0
 10
5.21721
 20
18.1619
 11
5.2354
 21
18.0588
  0
LINE
  8
0
 10
5.2354
 20
18.0588
 11
5.24634
 21
17.9546
  0
LINE
  8
0
 10
5.24634
 20
17.9546
 11
5.25
 21
17.85
  0
LINE
  8
0
 10
5.25
 20
17.85
 11
5.24634
 21
17.7454
  0
LINE
  8
0
 10
5.24634
 20
17.7454
 11
5.2354
 21
17.6412
  0
LINE
  8
0
 10
5.2354
 20
17.6412
 11
5.21721
 21
17.5381
  0
LINE
  8
0
 10
5.21721
 20
17.5381
 11
5.19188
 21
17.4365
  0
LINE
  8
0
 10
5.19188
 20
17.4365
 11
5.15953
 21
17.337
  0
LINE
  8
0
 10
5.15953
 20
17.337
 11
5.12032
 21
17.2399
  0
LINE
  8
0
 10
5.12032
 20
17.2399
 11
5.07442
 21
17.1458
  0
LINE
  8
0
 10
5.07442
 20
17.1458
 11
5.02206
 21
17.0551
  0
LINE
  8
0
 10
5.02206
 20
17.0551
 11
4.96352
 21
16.9683
  0
LINE
  8
0
 10
4.96352
 20
16.9683
 11
4.89906
 21
16.8858
  0
LINE
  8
0
 10
4.89906
 20
16.8858
 11
4.82901
 21
16.808
  0
LINE
  8
0
 10
4.82901
 20
16.808
 11
4.75369
 21
16.7353
  0
LINE
  8
0
 10
4.75369
 20
16.7353
 11
4.67348
 21
16.668
  0
LINE
  8
0
 10
4.67348
 20
16.668
 11
4.58878
 21
16.6064
  0
LINE
  8
0
 10
4.58878
 20
16.6064
 11
4.5
 21
16.551
  0
LINE
  8
0
 10
4.5
 20
16.551
 11
4.40755
 21
16.5018
  0
LINE
  8
0
 10
4.40755
 20
16.5018
 11
4.3119
 21
16.4592
  0
LINE
  8
0
 10
4.3119
 20
16.4592
 11
4.21352
 21
16.4234
  0
LINE
  8
0
 10
4.21352
 20
16.4234
 11
4.11287
 21
16.3946
  0
LINE
  8
0
 10
4.11287
 20
16.3946
 11
4.01047
 21
16.3728
  0
LINE
  8
0
 10
4.01047
 20
16.3728
 11
3.90678
 21
16.3582
  0
LINE
  8
0
 10
3.90678
 20
16.3582
 11
3.80234
 21
16.3509
  0
LINE
  8
0
 10
3.80234
 20
16.3509
 11
3.69765
 21
16.3509
  0
LINE
  8
0
 10
96.4476
 20
2.35091
 11
96.3432
 21
2.35822
  0
LINE
  8
0
 10
96.3432
 20
2.35822
 11
96.2395
 21
2.37279
  0
LINE
  8
0
 10
96.2395
 20
2.37279
 11
96.1371
 21
2.39455
  0
LINE
  8
0
 10
96.1371
 20
2.39455
 11
96.0365
 21
2.42342
  0
LINE
  8
0
 10
96.0365
 20
2.42342
 11
95.9381
 21
2.45921
  0
LINE
  8
0
 10
95.9381
 20
2.45921
 11
95.8424
 21
2.5018
  0
LINE
  8
0
 10
95.8424
 20
2.5018
 11
95.75
 21
2.55095
  0
LINE
  8
0
 10
95.75
 20
2.55095
 11
95.6612
 21
2.60643
  0
LINE
  8
0
 10
95.6612
 20
2.60643
 11
95.5765
 21
2.66797
  0
LINE
  8
0
 10
95.5765
 20
2.66797
 11
95.4963
 21
2.73528
  0
LINE
  8
0
 10
95.4963
 20
2.73528
 11
95.421
 21
2.808
  0
LINE
  8
0
 10
95.421
 20
2.808
 11
95.3509
 21
2.88582
  0
LINE
  8
0
 10
95.3509
 20
2.88582
 11
95.2865
 21
2.96831
  0
LINE
  8
0
 10
95.2865
 20
2.96831
 11
95.2279
 21
3.05511
  0
LINE
  8
0
 10
95.2279
 20
3.05511
 11
95.1756
 21
3.14578
  0
LINE
  8
0
 10
95.1756
 20
3.14578
 11
95.1297
 21
3.23988
  0
LINE
  8
0
 10
95.1297
 20
3.23988
 11
95.0905
 21
3.33696
  0
LINE
  8
0
 10
95.0905
 20
3.33696
 11
95.0581
 21
3.43654
  0
LINE
  8
0
 10
95.0581
 20
3.43654
 11
95.0328
 21
3.53812
  0
LINE
  8
0
 10
95.0328
 20
3.53812
 11
95.0146
 21
3.64124
  0
LINE
  8
0
 10
95.0146
 20
3.64124
 11
95.0037
 21
3.74536
  0
LINE
  8
0
 10
95.0037
 20
3.74536
 11
95
 21
3.84999
  0
LINE
  8
0
 10
95
 20
3.84999
 11
95.0037
 21
3.95462
  0
LINE
  8
0
 10
95.0037
 20
3.95462
 11
95.0146
 21
4.05875
  0
LINE
  8
0
 10
95.0146
 20
4.05875
 11
95.0328
 21
4.16187
  0
LINE
  8
0
 10
95.0328
 20
4.16187
 11
95.0581
 21
4.26346
  0
LINE
  8
0
 10
95.0581
 20
4.26346
 11
95.0905
 21
4.36302
  0
LINE
  8
0
 10
95.0905
 20
4.36302
 11
95.1297
 21
4.4601
  0
LINE
  8
0
 10
95.1297
 20
4.4601
 11
95.1756
 21
4.5542
  0
LINE
  8
0
 10
95.1756
 20
4.5542
 11
95.2279
 21
4.64487
  0
LINE
  8
0
 10
95.2279
 20
4.64487
 11
95.2865
 21
4.73167
  0
LINE
  8
0
 10
95.2865
 20
4.73167
 11
95.3509
 21
4.81418
  0
LINE
  8
0
 10
95.3509
 20
4.81418
 11
95.421
 21
4.89198
  0
LINE
  8
0
 10
95.421
 20
4.89198
 11
95.4963
 21
4.96471
  0
LINE
  8
0
 10
95.4963
 20
4.96471
 11
95.5765
 21
5.03201
  0
LINE
  8
0
 10
95.5765
 20
5.03201
 11
95.6612
 21
5.09355
  0
LINE
  8
0
 10
95.6612
 20
5.09355
 11
95.75
 21
5.14903
  0
LINE
  8
0
 10
95.75
 20
5.14903
 11
95.8424
 21
5.19818
  0
LINE
  8
0
 10
95.8424
 20
5.19818
 11
95.9381
 21
5.24077
  0
LINE
  8
0
 10
95.9381
 20
5.24077
 11
96.0365
 21
5.27657
  0
LINE
  8
0
 10
96.0365
 20
5.27657
 11
96.1371
 21
5.30544
  0
LINE
  8
0
 10
96.1371
 20
5.30544
 11
96.2395
 21
5.32721
  0
LINE
  8
0
 10
96.2395
 20
5.32721
 11
96.3432
 21
5.34177
  0
LINE
  8
0
 10
96.3432
 20
5.34177
 11
96.4476
 21
5.34908
  0
LINE
  8
0
 10
96.4476
 20
5.34908
 11
96.5524
 21
5.34908
  0
LINE
  8
0
 10
96.5524
 20
5.34908
 11
96.6568
 21
5.34177
  0
LINE
  8
0
 10
96.6568
 20
5.34177
 11
96.7605
 21
5.32721
  0
LINE
  8
0
 10
96.7605
 20
5.32721
 11
96.8629
 21
5.30544
  0
LINE
  8
0
 10
96.8629
 20
5.30544
 11
96.9635
 21
5.27657
  0
LINE
  8
0
 10
96.9635
 20
5.27657
 11
97.0619
 21
5.24077
  0
LINE
  8
0
 10
97.0619
 20
5.24077
 11
97.1576
 21
5.19818
  0
LINE
  8
0
 10
97.1576
 20
5.19818
 11
97.25
 21
5.14903
  0
LINE
  8
0
 10
97.25
 20
5.14903
 11
97.3388
 21
5.09355
  0
LINE
  8
0
 10
97.3388
 20
5.09355
 11
97.4235
 21
5.03201
  0
LINE
  8
0
 10
97.4235
 20
5.03201
 11
97.5037
 21
4.96471
  0
LINE
  8
0
 10
97.5037
 20
4.96471
 11
97.579
 21
4.89198
  0
LINE
  8
0
 10
97.579
 20
4.89198
 11
97.6491
 21
4.81418
  0
LINE
  8
0
 10
97.6491
 20
4.81418
 11
97.7135
 21
4.73167
  0
LINE
  8
0
 10
97.7135
 20
4.73167
 11
97.7721
 21
4.64487
  0
LINE
  8
0
 10
97.7721
 20
4.64487
 11
97.8244
 21
4.5542
  0
LINE
  8
0
 10
97.8244
 20
4.5542
 11
97.8703
 21
4.4601
  0
LINE
  8
0
 10
97.8703
 20
4.4601
 11
97.9095
 21
4.36302
  0
LINE
  8
0
 10
97.9095
 20
4.36302
 11
97.9419
 21
4.26346
  0
LINE
  8
0
 10
97.9419
 20
4.26346
 11
97.9672
 21
4.16187
  0
LINE
  8
0
 10
97.9672
 20
4.16187
 11
97.9854
 21
4.05875
  0
LINE
  8
0
 10
97.9854
 20
4.05875
 11
97.9963
 21
3.95462
  0
LINE
  8
0
 10
97.9963
 20
3.95462
 11
98
 21
3.84999
  0
LINE
  8
0
 10
98
 20
3.84999
 11
97.9963
 21
3.74536
  0
LINE
  8
0
 10
97.9963
 20
3.74536
 11
97.9854
 21
3.64124
  0
LINE
  8
0
 10
97.9854
 20
3.64124
 11
97.9672
 21
3.53812
  0
LINE
  8
0
 10
97.9672
 20
3.53812
 11
97.9419
 21
3.43654
  0
LINE
  8
0
 10
97.9419
 20
3.43654
 11
97.9095
 21
3.33696
  0
LINE
  8
0
 10
97.9095
 20
3.33696
 11
97.8703
 21
3.23988
  0
LINE
  8
0
 10
97.8703
 20
3.23988
 11
97.8244
 21
3.14578
  0
LINE
  8
0
 10
97.8244
 20
3.14578
 11
97.7721
 21
3.05511
  0
LINE
  8
0
 10
97.7721
 20
3.05511
 11
97.7135
 21
2.96831
  0
LINE
  8
0
 10
97.7135
 20
2.96831
 11
97.6491
 21
2.88582
  0
LINE
  8
0
 10
97.6491
 20
2.88582
 11
97.579
 21
2.808
  0
LINE
  8
0
 10
97.579
 20
2.808
 11
97.5037
 21
2.73528
  0
LINE
  8
0
 10
97.5037
 20
2.73528
 11
97.4235
 21
2.66797
  0
LINE
  8
0
 10
97.4235
 20
2.66797
 11
97.3388
 21
2.60643
  0
LINE
  8
0
 10
97.3388
 20
2.60643
 11
97.25
 21
2.55095
  0
LINE
  8
0
 10
97.25
 20
2.55095
 11
97.1576
 21
2.5018
  0
LINE
  8
0
 10
97.1576
 20
2.5018
 11
97.0619
 21
2.45921
  0
LINE
  8
0
 10
97.0619
 20
2.45921
 11
96.9635
 21
2.42342
  0
LINE
  8
0
 10
96.9635
 20
2.42342
 11
96.8629
 21
2.39455
  0
LINE
  8
0
 10
96.8629
 20
2.39455
 11
96.7605
 21
2.37279
  0
LINE
  8
0
 10
96.7605
 20
2.37279
 11
96.6568
 21
2.35822
  0
LINE
  8
0
 10
96.6568
 20
2.35822
 11
96.5524
 21
2.35091
  0
LINE
  8
0
 10
96.5524
 20
2.35091
 11
96.4476
 21
2.35091
  0
LINE
  8
0
 10
20.7976
 20
2.35091
 11
20.6932
 21
2.35822
  0
LINE
  8
0
 10
20.6932
 20
2.35822
 11
20.5895
 21
2.37279
  0
LINE
  8
0
 10
20.5895
 20
2.37279
 11
20.4871
 21
2.39455
  0
LINE
  8
0
 10
20.4871
 20
2.39455
 11
20.3865
 21
2.42342
  0
LINE
  8
0
 10
20.3865
 20
2.42342
 11
20.2881
 21
2.45921
  0
LINE
  8
0
 10
20.2881
 20
2.45921
 11
20.1924
 21
2.5018
  0
LINE
  8
0
 10
20.1924
 20
2.5018
 11
20.1
 21
2.55095
  0
LINE
  8
0
 10
20.1
 20
2.55095
 11
20.0112
 21
2.60643
  0
LINE
  8
0
 10
20.0112
 20
2.60643
 11
19.9265
 21
2.66797
  0
LINE
  8
0
 10
19.9265
 20
2.66797
 11
19.8463
 21
2.73528
  0
LINE
  8
0
 10
19.8463
 20
2.73528
 11
19.771
 21
2.808
  0
LINE
  8
0
 10
19.771
 20
2.808
 11
19.7009
 21
2.88582
  0
LINE
  8
0
 10
19.7009
 20
2.88582
 11
19.6365
 21
2.96831
  0
LINE
  8
0
 10
19.6365
 20
2.96831
 11
19.5779
 21
3.05511
  0
LINE
  8
0
 10
19.5779
 20
3.05511
 11
19.5256
 21
3.14578
  0
LINE
  8
0
 10
19.5256
 20
3.14578
 11
19.4797
 21
3.23988
  0
LINE
  8
0
 10
19.4797
 20
3.23988
 11
19.4405
 21
3.33696
  0
LINE
  8
0
 10
19.4405
 20
3.33696
 11
19.4081
 21
3.43654
  0
LINE
  8
0
 10
19.4081
 20
3.43654
 11
19.3828
 21
3.53812
  0
LINE
  8
0
 10
19.3828
 20
3.53812
 11
19.3646
 21
3.64124
  0
LINE
  8
0
 10
19.3646
 20
3.64124
 11
19.3537
 21
3.74536
  0
LINE
  8
0
 10
19.3537
 20
3.74536
 11
19.35
 21
3.84999
  0
LINE
  8
0
 10
19.35
 20
3.84999
 11
19.3537
 21
3.95462
  0
LINE
  8
0
 10
19.3537
 20
3.95462
 11
19.3646
 21
4.05875
  0
LINE
  8
0
 10
19.3646
 20
4.05875
 11
19.3828
 21
4.16187
  0
LINE
  8
0
 10
19.3828
 20
4.16187
 11
19.4081
 21
4.26346
  0
LINE
  8
0
 10
19.4081
 20
4.26346
 11
19.4405
 21
4.36302
  0
LINE
  8
0
 10
19.4405
 20
4.36302
 11
19.4797
 21
4.4601
  0
LINE
  8
0
 10
19.4797
 20
4.4601
 11
19.5256
 21
4.5542
  0
LINE
  8
0
 10
19.5256
 20
4.5542
 11
19.5779
 21
4.64487
  0
LINE
  8
0
 10
19.5779
 20
4.64487
 11
19.6365
 21
4.73167
  0
LINE
  8
0
 10
19.6365
 20
4.73167
 11
19.7009
 21
4.81418
  0
LINE
  8
0
 10
19.7009
 20
4.81418
 11
19.771
 21
4.89198
  0
LINE
  8
0
 10
19.771
 20
4.89198
 11
19.8463
 21
4.96471
  0
LINE
  8
0
 10
19.8463
 20
4.96471
 11
19.9265
 21
5.03201
  0
LINE
  8
0
 10
19.9265
 20
5.03201
 11
20.0112
 21
5.09355
  0
LINE
  8
0
 10
20.0112
 20
5.09355
 11
20.1
 21
5.14903
  0
LINE
  8
0
 10
20.1
 20
5.14903
 11
20.1924
 21
5.19818
  0
LINE
  8
0
 10
20.1924
 20
5.19818
 11
20.2881
 21
5.24077
  0
LINE
  8
0
 10
20.2881
 20
5.24077
 11
20.3865
 21
5.27657
  0
LINE
  8
0
 10
20.3865
 20
5.27657
 11
20.4871
 21
5.30544
  0
LINE
  8
0
 10
20.4871
 20
5.30544
 11
20.5895
 21
5.32721
  0
LINE
  8
0
 10
20.5895
 20
5.32721
 11
20.6932
 21
5.34177
  0
LINE
  8
0
 10
20.6932
 20
5.34177
 11
20.7976
 21
5.34908
  0
LINE
  8
0
 10
20.7976
 20
5.34908
 11
20.9023
 21
5.34908
  0
LINE
  8
0
 10
20.9023
 20
5.34908
 11
21.0068
 21
5.34177
  0
LINE
  8
0
 10
21.0068
 20
5.34177
 11
21.1105
 21
5.32721
  0
LINE
  8
0
 10
21.1105
 20
5.32721
 11
21.2129
 21
5.30544
  0
LINE
  8
0
 10
21.2129
 20
5.30544
 11
21.3135
 21
5.27657
  0
LINE
  8
0
 10
21.3135
 20
5.27657
 11
21.4119
 21
5.24077
  0
LINE
  8
0
 10
21.4119
 20
5.24077
 11
21.5076
 21
5.19818
  0
LINE
  8
0
 10
21.5076
 20
5.19818
 11
21.6
 21
5.14903
  0
LINE
  8
0
 10
21.6
 20
5.14903
 11
21.6888
 21
5.09355
  0
LINE
  8
0
 10
21.6888
 20
5.09355
 11
21.7735
 21
5.03201
  0
LINE
  8
0
 10
21.7735
 20
5.03201
 11
21.8537
 21
4.96471
  0
LINE
  8
0
 10
21.8537
 20
4.96471
 11
21.929
 21
4.89198
  0
LINE
  8
0
 10
21.929
 20
4.89198
 11
21.9991
 21
4.81418
  0
LINE
  8
0
 10
21.9991
 20
4.81418
 11
22.0635
 21
4.73167
  0
LINE
  8
0
 10
22.0635
 20
4.73167
 11
22.1221
 21
4.64487
  0
LINE
  8
0
 10
22.1221
 20
4.64487
 11
22.1744
 21
4.5542
  0
LINE
  8
0
 10
22.1744
 20
4.5542
 11
22.2203
 21
4.4601
  0
LINE
  8
0
 10
22.2203
 20
4.4601
 11
22.2595
 21
4.36302
  0
LINE
  8
0
 10
22.2595
 20
4.36302
 11
22.2919
 21
4.26346
  0
LINE
  8
0
 10
22.2919
 20
4.26346
 11
22.3172
 21
4.16187
  0
LINE
  8
0
 10
22.3172
 20
4.16187
 11
22.3354
 21
4.05875
  0
LINE
  8
0
 10
22.3354
 20
4.05875
 11
22.3463
 21
3.95462
  0
LINE
  8
0
 10
22.3463
 20
3.95462
 11
22.35
 21
3.84999
  0
LINE
  8
0
 10
22.35
 20
3.84999
 11
22.3463
 21
3.74536
  0
LINE
  8
0
 10
22.3463
 20
3.74536
 11
22.3354
 21
3.64124
  0
LINE
  8
0
 10
22.3354
 20
3.64124
 11
22.3172
 21
3.53812
  0
LINE
  8
0
 10
22.3172
 20
3.53812
 11
22.2919
 21
3.43654
  0
LINE
  8
0
 10
22.2919
 20
3.43654
 11
22.2595
 21
3.33696
  0
LINE
  8
0
 10
22.2595
 20
3.33696
 11
22.2203
 21
3.23988
  0
LINE
  8
0
 10
22.2203
 20
3.23988
 11
22.1744
 21
3.14578
  0
LINE
  8
0
 10
22.1744
 20
3.14578
 11
22.1221
 21
3.05511
  0
LINE
  8
0
 10
22.1221
 20
3.05511
 11
22.0635
 21
2.96831
  0
LINE
  8
0
 10
22.0635
 20
2.96831
 11
21.9991
 21
2.88582
  0
LINE
  8
0
 10
21.9991
 20
2.88582
 11
21.929
 21
2.808
  0
LINE
  8
0
 10
21.929
 20
2.808
 11
21.8537
 21
2.73528
  0
LINE
  8
0
 10
21.8537
 20
2.73528
 11
21.7735
 21
2.66797
  0
LINE
  8
0
 10
21.7735
 20
2.66797
 11
21.6888
 21
2.60643
  0
LINE
  8
0
 10
21.6888
 20
2.60643
 11
21.6
 21
2.55095
  0
LINE
  8
0
 10
21.6
 20
2.55095
 11
21.5076
 21
2.5018
  0
LINE
  8
0
 10
21.5076
 20
2.5018
 11
21.4119
 21
2.45921
  0
LINE
  8
0
 10
21.4119
 20
2.45921
 11
21.3135
 21
2.42342
  0
LINE
  8
0
 10
21.3135
 20
2.42342
 11
21.2129
 21
2.39455
  0
LINE
  8
0
 10
21.2129
 20
2.39455
 11
21.1105
 21
2.37279
  0
LINE
  8
0
 10
21.1105
 20
2.37279
 11
21.0068
 21
2.35822
  0
LINE
  8
0
 10
21.0068
 20
2.35822
 11
20.9023
 21
2.35091
  0
LINE
  8
0
 10
20.9023
 20
2.35091
 11
20.7976
 21
2.35091
  0
ENDSEC
  0
SECTION
  2
OBJECTS
  0
DICTIONARY
  0
ENDSEC
  0
EOF
